ISO-10303-21;
HEADER;
FILE_DESCRIPTION (( 'STEP AP203' ),
    '1' );
FILE_NAME ('Q-OZHWP-R2-25.4-633-M.STEP',
    '2020-12-22T09:19:23',
    ( '' ),
    ( '' ),
    'SwSTEP 2.0',
    'SolidWorks 2020',
    '' );
FILE_SCHEMA (( 'CONFIG_CONTROL_DESIGN' ));
ENDSEC;

DATA;
#1 = EDGE_CURVE ( 'NONE', #26, #72, #116, .T. ) ;
#2 = CC_DESIGN_SECURITY_CLASSIFICATION ( #33, ( #117 ) ) ;
#3 = CARTESIAN_POINT ( 'NONE',  ( 3.000000000000001776, 0.000000000000000000, 0.000000000000000000 ) ) ;
#4 = DIRECTION ( 'NONE',  ( 0.000000000000000000, 0.000000000000000000, 1.000000000000000000 ) ) ;
#5 = CARTESIAN_POINT ( 'NONE',  ( -3.000000000000001776, 0.000000000000000000, 0.000000000000000000 ) ) ;
#6 = CIRCLE ( 'NONE', #129, 12.69999999999999929 ) ;
#7 = COORDINATED_UNIVERSAL_TIME_OFFSET ( 8, 0, .AHEAD. ) ;
#8 = DIRECTION ( 'NONE',  ( -1.000000000000000000, -0.000000000000000000, -0.000000000000000000 ) ) ;
#9 = APPROVAL_STATUS ( 'not_yet_approved' ) ;
#10 = APPROVAL_ROLE ( '' ) ;
#11 = AXIS2_PLACEMENT_3D ( 'NONE', #17, #18, #45 ) ;
#12 = LOCAL_TIME ( 17, 19, 23.00000000000000000, #121 ) ;
#13 = APPROVAL_STATUS ( 'not_yet_approved' ) ;
#14 = ORIENTED_EDGE ( 'NONE', *, *, #1, .T. ) ;
#15 = PERSON_AND_ORGANIZATION ( #47, #81 ) ;
#16 = APPROVAL_PERSON_ORGANIZATION ( #15, #37, #69 ) ;
#17 = CARTESIAN_POINT ( 'NONE',  ( 3.000000000000000888, 12.69999999999999929, 0.000000000000000000 ) ) ;
#18 = DIRECTION ( 'NONE',  ( -1.000000000000000000, 0.000000000000000000, -0.000000000000000000 ) ) ;
#19 = DIRECTION ( 'NONE',  ( -1.000000000000000000, -0.000000000000000000, -0.000000000000000000 ) ) ;
#20 = AXIS2_PLACEMENT_3D ( 'NONE', #175, #71, #111 ) ;
#21 = ORIENTED_EDGE ( 'NONE', *, *, #164, .T. ) ;
#22 = PERSON_AND_ORGANIZATION ( #47, #81 ) ;
#23 = APPLICATION_PROTOCOL_DEFINITION ( 'international standard', 'config_control_design', 1994, #62 ) ;
#24 = CALENDAR_DATE ( 2020, 22, 12 ) ;
#25 = PRODUCT_DEFINITION ( 'UNKNOWN', '', #117, #31 ) ;
#26 = VERTEX_POINT ( 'NONE', #138 ) ;
#27 = DATE_AND_TIME ( #110, #29 ) ;
#28 = DATE_TIME_ROLE ( 'classification_date' ) ;
#29 = LOCAL_TIME ( 17, 19, 23.00000000000000000, #70 ) ;
#30 = FACE_OUTER_BOUND ( 'NONE', #151, .T. ) ;
#31 = DESIGN_CONTEXT ( 'detailed design', #115, 'design' ) ;
#32 = FACE_OUTER_BOUND ( 'NONE', #109, .T. ) ;
#33 = SECURITY_CLASSIFICATION ( '', '', #85 ) ;
#34 = COORDINATED_UNIVERSAL_TIME_OFFSET ( 8, 0, .AHEAD. ) ;
#35 = UNCERTAINTY_MEASURE_WITH_UNIT (LENGTH_MEASURE( 1.000000000000000082E-05 ), #95, 'distance_accuracy_value', 'NONE');
#36 = CARTESIAN_POINT ( 'NONE',  ( -3.000000000000001776, 1.555301434917138433E-15, -12.69999999999999929 ) ) ;
#37 = APPROVAL ( #13, 'UNSPECIFIED' ) ;
#38 = APPROVAL_DATE_TIME ( #27, #37 ) ;
#39 = PRODUCT ( 'Q-OZHWP-R2-25.4-633-M', 'Q-OZHWP-R2-25.4-633-M', '', ( #140 ) ) ;
#40 = LOCAL_TIME ( 17, 19, 23.00000000000000000, #34 ) ;
#41 = ORIENTED_EDGE ( 'NONE', *, *, #52, .T. ) ;
#42 = ADVANCED_BREP_SHAPE_REPRESENTATION ( 'Q-OZHWP-R2-25.4-633-M', ( #55, #78 ), #93 ) ;
#43 = ORIENTED_EDGE ( 'NONE', *, *, #1, .F. ) ;
#44 = PERSON_AND_ORGANIZATION ( #47, #81 ) ;
#45 = DIRECTION ( 'NONE',  ( -0.000000000000000000, 0.000000000000000000, 1.000000000000000000 ) ) ;
#46 = CARTESIAN_POINT ( 'NONE',  ( -3.000000000000000888, 12.69999999999999929, 0.000000000000000000 ) ) ;
#47 = PERSON ( 'UNSPECIFIED', 'UNSPECIFIED', 'UNSPECIFIED', ('UNSPECIFIED'), ('UNSPECIFIED'), ('UNSPECIFIED') ) ;
#48 = CARTESIAN_POINT ( 'NONE',  ( 3.000000000000001776, 0.000000000000000000, 0.000000000000000000 ) ) ;
#49 = EDGE_CURVE ( 'NONE', #26, #91, #145, .T. ) ;
#50 = CLOSED_SHELL ( 'NONE', ( #147, #68, #159, #135 ) ) ;
#51 =( NAMED_UNIT ( * ) PLANE_ANGLE_UNIT ( ) SI_UNIT ( $, .RADIAN. ) );
#52 = EDGE_CURVE ( 'NONE', #172, #72, #6, .T. ) ;
#53 = DATE_AND_TIME ( #171, #66 ) ;
#54 = AXIS2_PLACEMENT_3D ( 'NONE', #63, #168, #136 ) ;
#55 = MANIFOLD_SOLID_BREP ( 'Ðý×', #50 ) ;
#56 = CC_DESIGN_DATE_AND_TIME_ASSIGNMENT ( #65, #158, ( #25 ) ) ;
#57 = CARTESIAN_POINT ( 'NONE',  ( 3.000000000000001776, 1.555301434917138433E-15, -12.69999999999999929 ) ) ;
#58 = VECTOR ( 'NONE', #8, 1000.000000000000000 ) ;
#59 = LOCAL_TIME ( 17, 19, 23.00000000000000000, #143 ) ;
#60 = DIRECTION ( 'NONE',  ( -1.000000000000000000, -0.000000000000000000, -0.000000000000000000 ) ) ;
#61 = ORIENTED_EDGE ( 'NONE', *, *, #102, .F. ) ;
#62 = APPLICATION_CONTEXT ( 'configuration controlled 3d designs of mechanical parts and assemblies' ) ;
#63 = CARTESIAN_POINT ( 'NONE',  ( -3.000000000000000000, 0.000000000000000000, 0.000000000000000000 ) ) ;
#64 = AXIS2_PLACEMENT_3D ( 'NONE', #3, #60, #152 ) ;
#65 = DATE_AND_TIME ( #24, #59 ) ;
#66 = LOCAL_TIME ( 17, 19, 23.00000000000000000, #7 ) ;
#67 = APPROVAL_STATUS ( 'not_yet_approved' ) ;
#68 = ADVANCED_FACE ( 'NONE', ( #32 ), #73, .T. ) ;
#69 = APPROVAL_ROLE ( '' ) ;
#70 = COORDINATED_UNIVERSAL_TIME_OFFSET ( 8, 0, .AHEAD. ) ;
#71 = DIRECTION ( 'NONE',  ( -1.000000000000000000, -0.000000000000000000, -0.000000000000000000 ) ) ;
#72 = VERTEX_POINT ( 'NONE', #113 ) ;
#73 = CYLINDRICAL_SURFACE ( 'NONE', #141, 12.69999999999999929 ) ;
#74 = VECTOR ( 'NONE', #166, 1000.000000000000000 ) ;
#75 = ORIENTED_EDGE ( 'NONE', *, *, #169, .T. ) ;
#76 = CARTESIAN_POINT ( 'NONE',  ( -3.000000000000000000, 0.000000000000000000, 0.000000000000000000 ) ) ;
#77 = CC_DESIGN_PERSON_AND_ORGANIZATION_ASSIGNMENT ( #146, #160, ( #117 ) ) ;
#78 = AXIS2_PLACEMENT_3D ( 'NONE', #170, #104, #173 ) ;
#79 = PERSON_AND_ORGANIZATION ( #47, #81 ) ;
#80 = PERSON_AND_ORGANIZATION_ROLE ( 'design_owner' ) ;
#81 = ORGANIZATION ( 'UNSPECIFIED', 'UNSPECIFIED', '' ) ;
#82 = DATE_AND_TIME ( #148, #12 ) ;
#83 = CC_DESIGN_PERSON_AND_ORGANIZATION_ASSIGNMENT ( #79, #80, ( #39 ) ) ;
#84 = APPROVAL_PERSON_ORGANIZATION ( #119, #118, #10 ) ;
#85 = SECURITY_CLASSIFICATION_LEVEL ( 'unclassified' ) ;
#86 = PLANE ( 'NONE',  #11 ) ;
#87 = CC_DESIGN_APPROVAL ( #37, ( #33 ) ) ;
#88 = CYLINDRICAL_SURFACE ( 'NONE', #54, 12.69999999999999929 ) ;
#89 = ORIENTED_EDGE ( 'NONE', *, *, #49, .T. ) ;
#90 = CARTESIAN_POINT ( 'NONE',  ( -3.000000000000000000, 1.555301434917138433E-15, -12.69999999999999929 ) ) ;
#91 = VERTEX_POINT ( 'NONE', #57 ) ;
#92 = CALENDAR_DATE ( 2020, 22, 12 ) ;
#93 =( GEOMETRIC_REPRESENTATION_CONTEXT ( 3 ) GLOBAL_UNCERTAINTY_ASSIGNED_CONTEXT ( ( #35 ) ) GLOBAL_UNIT_ASSIGNED_CONTEXT ( ( #95, #51, #142 ) ) REPRESENTATION_CONTEXT ( 'NONE', 'WORKASPACE' ) );
#94 = PERSON_AND_ORGANIZATION_ROLE ( 'creator' ) ;
#95 =( LENGTH_UNIT ( ) NAMED_UNIT ( * ) SI_UNIT ( .MILLI., .METRE. ) );
#96 = APPROVAL_DATE_TIME ( #139, #106 ) ;
#97 = EDGE_LOOP ( 'NONE', ( #134, #127 ) ) ;
#98 = CC_DESIGN_DATE_AND_TIME_ASSIGNMENT ( #82, #28, ( #33 ) ) ;
#99 = PERSON_AND_ORGANIZATION_ROLE ( 'creator' ) ;
#100 = PERSON_AND_ORGANIZATION ( #47, #81 ) ;
#101 = DIRECTION ( 'NONE',  ( 0.000000000000000000, 0.000000000000000000, -1.000000000000000000 ) ) ;
#102 = EDGE_CURVE ( 'NONE', #72, #172, #132, .T. ) ;
#103 = CARTESIAN_POINT ( 'NONE',  ( -3.000000000000000000, 0.000000000000000000, 12.69999999999999929 ) ) ;
#104 = DIRECTION ( 'NONE',  ( 0.000000000000000000, 0.000000000000000000, 1.000000000000000000 ) ) ;
#105 = APPLICATION_PROTOCOL_DEFINITION ( 'international standard', 'config_control_design', 1994, #115 ) ;
#106 = APPROVAL ( #67, 'UNSPECIFIED' ) ;
#107 = PERSON_AND_ORGANIZATION_ROLE ( 'classification_officer' ) ;
#108 = APPROVAL_PERSON_ORGANIZATION ( #130, #106, #120 ) ;
#109 = EDGE_LOOP ( 'NONE', ( #161, #21, #14, #131 ) ) ;
#110 = CALENDAR_DATE ( 2020, 22, 12 ) ;
#111 = DIRECTION ( 'NONE',  ( 0.000000000000000000, 0.000000000000000000, 1.000000000000000000 ) ) ;
#112 = EDGE_LOOP ( 'NONE', ( #114, #41 ) ) ;
#113 = CARTESIAN_POINT ( 'NONE',  ( -3.000000000000001776, 0.000000000000000000, 12.69999999999999929 ) ) ;
#114 = ORIENTED_EDGE ( 'NONE', *, *, #102, .T. ) ;
#115 = APPLICATION_CONTEXT ( 'configuration controlled 3d designs of mechanical parts and assemblies' ) ;
#116 = LINE ( 'NONE', #103, #74 ) ;
#117 = PRODUCT_DEFINITION_FORMATION_WITH_SPECIFIED_SOURCE ( 'ANY', '', #39, .NOT_KNOWN. ) ;
#118 = APPROVAL ( #9, 'UNSPECIFIED' ) ;
#119 = PERSON_AND_ORGANIZATION ( #47, #81 ) ;
#120 = APPROVAL_ROLE ( '' ) ;
#121 = COORDINATED_UNIVERSAL_TIME_OFFSET ( 8, 0, .AHEAD. ) ;
#122 = CC_DESIGN_PERSON_AND_ORGANIZATION_ASSIGNMENT ( #44, #99, ( #117 ) ) ;
#123 = PRODUCT_DEFINITION_SHAPE ( 'NONE', 'NONE',  #25 ) ;
#124 = DIRECTION ( 'NONE',  ( -1.000000000000000000, -0.000000000000000000, -0.000000000000000000 ) ) ;
#125 = DIRECTION ( 'NONE',  ( 1.000000000000000000, 0.000000000000000000, 0.000000000000000000 ) ) ;
#126 = DIRECTION ( 'NONE',  ( 0.000000000000000000, 0.000000000000000000, 1.000000000000000000 ) ) ;
#127 = ORIENTED_EDGE ( 'NONE', *, *, #164, .F. ) ;
#128 = DIRECTION ( 'NONE',  ( 0.000000000000000000, 0.000000000000000000, 1.000000000000000000 ) ) ;
#129 = AXIS2_PLACEMENT_3D ( 'NONE', #5, #155, #4 ) ;
#130 = PERSON_AND_ORGANIZATION ( #47, #81 ) ;
#131 = ORIENTED_EDGE ( 'NONE', *, *, #52, .F. ) ;
#132 = CIRCLE ( 'NONE', #20, 12.69999999999999929 ) ;
#133 = PRODUCT_RELATED_PRODUCT_CATEGORY ( 'detail', '', ( #39 ) ) ;
#134 = ORIENTED_EDGE ( 'NONE', *, *, #49, .F. ) ;
#135 = ADVANCED_FACE ( 'NONE', ( #165 ), #156, .F. ) ;
#136 = DIRECTION ( 'NONE',  ( 0.000000000000000000, 0.000000000000000000, 1.000000000000000000 ) ) ;
#137 = FACE_OUTER_BOUND ( 'NONE', #97, .T. ) ;
#138 = CARTESIAN_POINT ( 'NONE',  ( 3.000000000000001776, 0.000000000000000000, 12.69999999999999929 ) ) ;
#139 = DATE_AND_TIME ( #92, #40 ) ;
#140 = MECHANICAL_CONTEXT ( 'NONE', #62, 'mechanical' ) ;
#141 = AXIS2_PLACEMENT_3D ( 'NONE', #76, #19, #128 ) ;
#142 =( NAMED_UNIT ( * ) SI_UNIT ( $, .STERADIAN. ) SOLID_ANGLE_UNIT ( ) );
#143 = COORDINATED_UNIVERSAL_TIME_OFFSET ( 8, 0, .AHEAD. ) ;
#144 = CC_DESIGN_PERSON_AND_ORGANIZATION_ASSIGNMENT ( #22, #94, ( #25 ) ) ;
#145 = CIRCLE ( 'NONE', #154, 12.69999999999999929 ) ;
#146 = PERSON_AND_ORGANIZATION ( #47, #81 ) ;
#147 = ADVANCED_FACE ( 'NONE', ( #30 ), #88, .T. ) ;
#148 = CALENDAR_DATE ( 2020, 22, 12 ) ;
#149 = CIRCLE ( 'NONE', #64, 12.69999999999999929 ) ;
#150 = CC_DESIGN_APPROVAL ( #106, ( #117 ) ) ;
#151 = EDGE_LOOP ( 'NONE', ( #89, #75, #61, #43 ) ) ;
#152 = DIRECTION ( 'NONE',  ( 0.000000000000000000, 0.000000000000000000, 1.000000000000000000 ) ) ;
#153 = CC_DESIGN_PERSON_AND_ORGANIZATION_ASSIGNMENT ( #100, #107, ( #33 ) ) ;
#154 = AXIS2_PLACEMENT_3D ( 'NONE', #48, #124, #126 ) ;
#155 = DIRECTION ( 'NONE',  ( -1.000000000000000000, -0.000000000000000000, -0.000000000000000000 ) ) ;
#156 = PLANE ( 'NONE',  #174 ) ;
#157 = APPROVAL_DATE_TIME ( #53, #118 ) ;
#158 = DATE_TIME_ROLE ( 'creation_date' ) ;
#159 = ADVANCED_FACE ( 'NONE', ( #137 ), #86, .F. ) ;
#160 = PERSON_AND_ORGANIZATION_ROLE ( 'design_supplier' ) ;
#161 = ORIENTED_EDGE ( 'NONE', *, *, #169, .F. ) ;
#162 = CC_DESIGN_APPROVAL ( #118, ( #25 ) ) ;
#163 = SHAPE_DEFINITION_REPRESENTATION ( #123, #42 ) ;
#164 = EDGE_CURVE ( 'NONE', #91, #26, #149, .T. ) ;
#165 = FACE_OUTER_BOUND ( 'NONE', #112, .T. ) ;
#166 = DIRECTION ( 'NONE',  ( -1.000000000000000000, -0.000000000000000000, -0.000000000000000000 ) ) ;
#167 = LINE ( 'NONE', #90, #58 ) ;
#168 = DIRECTION ( 'NONE',  ( -1.000000000000000000, -0.000000000000000000, -0.000000000000000000 ) ) ;
#169 = EDGE_CURVE ( 'NONE', #91, #172, #167, .T. ) ;
#170 = CARTESIAN_POINT ( 'NONE',  ( 0.000000000000000000, 0.000000000000000000, 0.000000000000000000 ) ) ;
#171 = CALENDAR_DATE ( 2020, 22, 12 ) ;
#172 = VERTEX_POINT ( 'NONE', #36 ) ;
#173 = DIRECTION ( 'NONE',  ( 1.000000000000000000, 0.000000000000000000, 0.000000000000000000 ) ) ;
#174 = AXIS2_PLACEMENT_3D ( 'NONE', #46, #125, #101 ) ;
#175 = CARTESIAN_POINT ( 'NONE',  ( -3.000000000000001776, 0.000000000000000000, 0.000000000000000000 ) ) ;
ENDSEC;
END-ISO-10303-21;
